ISO-10303-21;
HEADER;
FILE_DESCRIPTION (( 'STEP AP203' ),
    '1' );
FILE_NAME ('AL-HD14-5.1x10-20 Äèñòàíöèîííàÿ âòóëêà 5.1x10-20.STEP',
    '2024-12-12T13:53:03',
    ( '' ),
    ( '' ),
    'SwSTEP 2.0',
    'SolidWorks 2021',
    '' );
FILE_SCHEMA (( 'CONFIG_CONTROL_DESIGN' ));
ENDSEC;

DATA;
#1 = EDGE_CURVE ( 'NONE', #193, #172, #170, .T. ) ;
#2 = CARTESIAN_POINT ( 'NONE',  ( 5.000000000000000000, 6.123233995736766282E-16, 20.00000000000000000 ) ) ;
#3 = AXIS2_PLACEMENT_3D ( 'NONE', #189, #100, #46 ) ;
#4 = APPROVAL_PERSON_ORGANIZATION ( #68, #37, #143 ) ;
#5 = FACE_BOUND ( 'NONE', #23, .T. ) ;
#6 = CARTESIAN_POINT ( 'NONE',  ( 0.000000000000000000, 0.000000000000000000, 20.00000000000000000 ) ) ;
#7 = EDGE_LOOP ( 'NONE', ( #194, #117 ) ) ;
#8 = ADVANCED_FACE ( 'NONE', ( #115, #5 ), #185, .T. ) ;
#9 = CARTESIAN_POINT ( 'NONE',  ( 0.000000000000000000, 0.000000000000000000, 0.000000000000000000 ) ) ;
#10 = DIRECTION ( 'NONE',  ( 0.000000000000000000, 0.000000000000000000, 1.000000000000000000 ) ) ;
#11 = ORIENTED_EDGE ( 'NONE', *, *, #229, .F. ) ;
#12 = ADVANCED_BREP_SHAPE_REPRESENTATION ( 'AL-HD14-5.1x10-20 -ø¸ªðý¡øþýýð  òªºûúð 5.1x10-20', ( #183, #205 ), #213 ) ;
#13 = DIRECTION ( 'NONE',  ( 1.000000000000000000, 0.000000000000000000, 0.000000000000000000 ) ) ;
#14 = PERSON_AND_ORGANIZATION_ROLE ( 'creator' ) ;
#15 = ORIENTED_EDGE ( 'NONE', *, *, #1, .T. ) ;
#16 = EDGE_CURVE ( 'NONE', #34, #161, #26, .T. ) ;
#17 = MECHANICAL_CONTEXT ( 'NONE', #66, 'mechanical' ) ;
#18 = EDGE_CURVE ( 'NONE', #161, #79, #109, .T. ) ;
#19 = PERSON_AND_ORGANIZATION_ROLE ( 'creator' ) ;
#20 = CALENDAR_DATE ( 2024, 12, 12 ) ;
#21 = ADVANCED_FACE ( 'NONE', ( #45, #171 ), #155, .F. ) ;
#22 = CARTESIAN_POINT ( 'NONE',  ( 0.000000000000000000, 0.000000000000000000, 20.00000000000000000 ) ) ;
#23 = EDGE_LOOP ( 'NONE', ( #199, #69 ) ) ;
#24 = DIRECTION ( 'NONE',  ( -0.000000000000000000, -0.000000000000000000, -1.000000000000000000 ) ) ;
#25 = APPROVAL_PERSON_ORGANIZATION ( #127, #181, #56 ) ;
#26 = LINE ( 'NONE', #173, #44 ) ;
#27 = DESIGN_CONTEXT ( 'detailed design', #153, 'design' ) ;
#28 = DIRECTION ( 'NONE',  ( 0.000000000000000000, 0.000000000000000000, 1.000000000000000000 ) ) ;
#29 = ORIENTED_EDGE ( 'NONE', *, *, #95, .F. ) ;
#30 = FACE_OUTER_BOUND ( 'NONE', #240, .T. ) ;
#31 = ORIENTED_EDGE ( 'NONE', *, *, #89, .F. ) ;
#32 = AXIS2_PLACEMENT_3D ( 'NONE', #101, #190, #118 ) ;
#33 = DIRECTION ( 'NONE',  ( 0.000000000000000000, 0.000000000000000000, 1.000000000000000000 ) ) ;
#34 = VERTEX_POINT ( 'NONE', #2 ) ;
#35 = VERTEX_POINT ( 'NONE', #75 ) ;
#36 = PERSON_AND_ORGANIZATION ( #151, #219 ) ;
#37 = APPROVAL ( #55, 'UNSPECIFIED' ) ;
#38 = VECTOR ( 'NONE', #24, 1000.000000000000000 ) ;
#39 =( NAMED_UNIT ( * ) SI_UNIT ( $, .STERADIAN. ) SOLID_ANGLE_UNIT ( ) );
#40 = APPROVAL_DATE_TIME ( #245, #37 ) ;
#41 = VECTOR ( 'NONE', #186, 1000.000000000000000 ) ;
#42 = SECURITY_CLASSIFICATION ( '', '', #180 ) ;
#43 = EDGE_CURVE ( 'NONE', #193, #102, #60, .T. ) ;
#44 = VECTOR ( 'NONE', #94, 1000.000000000000000 ) ;
#45 = FACE_OUTER_BOUND ( 'NONE', #51, .T. ) ;
#46 = DIRECTION ( 'NONE',  ( 1.000000000000000000, 0.000000000000000000, 0.000000000000000000 ) ) ;
#47 = FACE_OUTER_BOUND ( 'NONE', #175, .T. ) ;
#48 = CARTESIAN_POINT ( 'NONE',  ( -2.549999999999999822, 0.000000000000000000, 20.00000000000000000 ) ) ;
#49 = DIRECTION ( 'NONE',  ( 1.000000000000000000, 0.000000000000000000, 0.000000000000000000 ) ) ;
#50 = DIRECTION ( 'NONE',  ( 1.000000000000000000, 0.000000000000000000, 0.000000000000000000 ) ) ;
#51 = EDGE_LOOP ( 'NONE', ( #31, #191 ) ) ;
#52 = CARTESIAN_POINT ( 'NONE',  ( -2.549999999999999822, 0.000000000000000000, 20.00000000000000000 ) ) ;
#53 = ORIENTED_EDGE ( 'NONE', *, *, #152, .F. ) ;
#54 = CARTESIAN_POINT ( 'NONE',  ( 0.000000000000000000, 0.000000000000000000, 0.000000000000000000 ) ) ;
#55 = APPROVAL_STATUS ( 'not_yet_approved' ) ;
#56 = APPROVAL_ROLE ( '' ) ;
#57 = AXIS2_PLACEMENT_3D ( 'NONE', #198, #192, #177 ) ;
#58 = CARTESIAN_POINT ( 'NONE',  ( 0.000000000000000000, 0.000000000000000000, 0.000000000000000000 ) ) ;
#59 = FACE_OUTER_BOUND ( 'NONE', #124, .T. ) ;
#60 = LINE ( 'NONE', #230, #41 ) ;
#61 = EDGE_LOOP ( 'NONE', ( #237, #119 ) ) ;
#62 = AXIS2_PLACEMENT_3D ( 'NONE', #97, #10, #50 ) ;
#63 = EDGE_LOOP ( 'NONE', ( #211, #15, #140, #29 ) ) ;
#64 = LOCAL_TIME ( 16, 53, 3.000000000000000000, #125 ) ;
#65 = CARTESIAN_POINT ( 'NONE',  ( 0.000000000000000000, 0.000000000000000000, 20.00000000000000000 ) ) ;
#66 = APPLICATION_CONTEXT ( 'configuration controlled 3d designs of mechanical parts and assemblies' ) ;
#67 = CYLINDRICAL_SURFACE ( 'NONE', #212, 2.549999999999999822 ) ;
#68 = PERSON_AND_ORGANIZATION ( #151, #219 ) ;
#69 = ORIENTED_EDGE ( 'NONE', *, *, #1, .F. ) ;
#70 = PERSON_AND_ORGANIZATION ( #151, #219 ) ;
#71 = DIRECTION ( 'NONE',  ( 0.000000000000000000, 0.000000000000000000, 1.000000000000000000 ) ) ;
#72 = PERSON_AND_ORGANIZATION ( #151, #219 ) ;
#73 = EDGE_CURVE ( 'NONE', #172, #193, #131, .T. ) ;
#74 = CIRCLE ( 'NONE', #57, 2.549999999999999822 ) ;
#75 = CARTESIAN_POINT ( 'NONE',  ( -2.549999999999999822, 0.000000000000000000, 0.000000000000000000 ) ) ;
#76 = LINE ( 'NONE', #52, #38 ) ;
#77 = PRODUCT ( 'AL-HD14-5.1x10-20 Äèñòàíöèîííàÿ âòóëêà 5.1x10-20', 'AL-HD14-5.1x10-20 Äèñòàíöèîííàÿ âòóëêà 5.1x10-20', '', ( #17 ) ) ;
#78 = DIRECTION ( 'NONE',  ( 0.000000000000000000, 0.000000000000000000, 1.000000000000000000 ) ) ;
#79 = VERTEX_POINT ( 'NONE', #141 ) ;
#80 = DIRECTION ( 'NONE',  ( 0.000000000000000000, 0.000000000000000000, 1.000000000000000000 ) ) ;
#81 = DIRECTION ( 'NONE',  ( 1.000000000000000000, 0.000000000000000000, 0.000000000000000000 ) ) ;
#82 = ADVANCED_FACE ( 'NONE', ( #47 ), #156, .T. ) ;
#83 = AXIS2_PLACEMENT_3D ( 'NONE', #6, #105, #238 ) ;
#84 = CARTESIAN_POINT ( 'NONE',  ( -5.000000000000000000, 0.000000000000000000, 20.00000000000000000 ) ) ;
#85 = ORIENTED_EDGE ( 'NONE', *, *, #215, .F. ) ;
#86 = COORDINATED_UNIVERSAL_TIME_OFFSET ( 3, 0, .AHEAD. ) ;
#87 = PRODUCT_DEFINITION_FORMATION_WITH_SPECIFIED_SOURCE ( 'ANY', '', #77, .NOT_KNOWN. ) ;
#88 = APPROVAL_ROLE ( '' ) ;
#89 = EDGE_CURVE ( 'NONE', #79, #161, #242, .T. ) ;
#90 = SHAPE_DEFINITION_REPRESENTATION ( #210, #12 ) ;
#91 = ADVANCED_FACE ( 'NONE', ( #30 ), #67, .F. ) ;
#92 = CIRCLE ( 'NONE', #113, 5.000000000000000000 ) ;
#93 = APPROVAL_DATE_TIME ( #150, #181 ) ;
#94 = DIRECTION ( 'NONE',  ( -0.000000000000000000, -0.000000000000000000, -1.000000000000000000 ) ) ;
#95 = EDGE_CURVE ( 'NONE', #102, #35, #74, .T. ) ;
#96 = CARTESIAN_POINT ( 'NONE',  ( 0.000000000000000000, 0.000000000000000000, 20.00000000000000000 ) ) ;
#97 = CARTESIAN_POINT ( 'NONE',  ( 0.000000000000000000, 0.000000000000000000, 20.00000000000000000 ) ) ;
#98 = CC_DESIGN_APPROVAL ( #208, ( #87 ) ) ;
#99 = UNCERTAINTY_MEASURE_WITH_UNIT (LENGTH_MEASURE( 1.000000000000000082E-05 ), #129, 'distance_accuracy_value', 'NONE');
#100 = DIRECTION ( 'NONE',  ( 0.000000000000000000, 0.000000000000000000, 1.000000000000000000 ) ) ;
#101 = CARTESIAN_POINT ( 'NONE',  ( 0.000000000000000000, 0.000000000000000000, 20.00000000000000000 ) ) ;
#102 = VERTEX_POINT ( 'NONE', #235 ) ;
#103 = PRODUCT_RELATED_PRODUCT_CATEGORY ( 'detail', '', ( #77 ) ) ;
#104 = ORIENTED_EDGE ( 'NONE', *, *, #195, .T. ) ;
#105 = DIRECTION ( 'NONE',  ( -0.000000000000000000, -0.000000000000000000, -1.000000000000000000 ) ) ;
#106 = DIRECTION ( 'NONE',  ( -1.000000000000000000, 0.000000000000000000, 0.000000000000000000 ) ) ;
#107 = COORDINATED_UNIVERSAL_TIME_OFFSET ( 3, 0, .AHEAD. ) ;
#108 = DATE_AND_TIME ( #246, #64 ) ;
#109 = CIRCLE ( 'NONE', #207, 5.000000000000000000 ) ;
#110 = LOCAL_TIME ( 16, 53, 3.000000000000000000, #86 ) ;
#111 = CC_DESIGN_PERSON_AND_ORGANIZATION_ASSIGNMENT ( #178, #203, ( #77 ) ) ;
#112 = DATE_TIME_ROLE ( 'creation_date' ) ;
#113 = AXIS2_PLACEMENT_3D ( 'NONE', #65, #33, #209 ) ;
#114 = DIRECTION ( 'NONE',  ( 0.000000000000000000, 0.000000000000000000, 1.000000000000000000 ) ) ;
#115 = FACE_OUTER_BOUND ( 'NONE', #7, .T. ) ;
#116 = CYLINDRICAL_SURFACE ( 'NONE', #182, 2.549999999999999822 ) ;
#117 = ORIENTED_EDGE ( 'NONE', *, *, #215, .T. ) ;
#118 = DIRECTION ( 'NONE',  ( -1.000000000000000000, 0.000000000000000000, 0.000000000000000000 ) ) ;
#119 = ORIENTED_EDGE ( 'NONE', *, *, #95, .T. ) ;
#120 = FACE_OUTER_BOUND ( 'NONE', #63, .T. ) ;
#121 = ORIENTED_EDGE ( 'NONE', *, *, #16, .T. ) ;
#122 = CYLINDRICAL_SURFACE ( 'NONE', #83, 5.000000000000000000 ) ;
#123 = AXIS2_PLACEMENT_3D ( 'NONE', #139, #28, #81 ) ;
#124 = EDGE_LOOP ( 'NONE', ( #85, #121, #197, #234 ) ) ;
#125 = COORDINATED_UNIVERSAL_TIME_OFFSET ( 3, 0, .AHEAD. ) ;
#126 = COORDINATED_UNIVERSAL_TIME_OFFSET ( 3, 0, .AHEAD. ) ;
#127 = PERSON_AND_ORGANIZATION ( #151, #219 ) ;
#128 = CC_DESIGN_DATE_AND_TIME_ASSIGNMENT ( #222, #223, ( #42 ) ) ;
#129 =( LENGTH_UNIT ( ) NAMED_UNIT ( * ) SI_UNIT ( .MILLI., .METRE. ) );
#130 = DIRECTION ( 'NONE',  ( -1.000000000000000000, 0.000000000000000000, 0.000000000000000000 ) ) ;
#131 = CIRCLE ( 'NONE', #158, 2.549999999999999822 ) ;
#132 = ORIENTED_EDGE ( 'NONE', *, *, #43, .T. ) ;
#133 = CARTESIAN_POINT ( 'NONE',  ( 0.000000000000000000, 0.000000000000000000, 0.000000000000000000 ) ) ;
#134 = ORIENTED_EDGE ( 'NONE', *, *, #16, .F. ) ;
#135 = DIRECTION ( 'NONE',  ( -0.000000000000000000, -0.000000000000000000, -1.000000000000000000 ) ) ;
#136 = EDGE_CURVE ( 'NONE', #172, #35, #76, .T. ) ;
#137 = CIRCLE ( 'NONE', #123, 2.549999999999999822 ) ;
#138 = LOCAL_TIME ( 16, 53, 3.000000000000000000, #149 ) ;
#139 = CARTESIAN_POINT ( 'NONE',  ( 0.000000000000000000, 0.000000000000000000, 0.000000000000000000 ) ) ;
#140 = ORIENTED_EDGE ( 'NONE', *, *, #136, .T. ) ;
#141 = CARTESIAN_POINT ( 'NONE',  ( -5.000000000000000000, 0.000000000000000000, 0.000000000000000000 ) ) ;
#142 = ORIENTED_EDGE ( 'NONE', *, *, #136, .F. ) ;
#143 = APPROVAL_ROLE ( '' ) ;
#144 = AXIS2_PLACEMENT_3D ( 'NONE', #22, #78, #232 ) ;
#145 = CC_DESIGN_APPROVAL ( #37, ( #206 ) ) ;
#146 = PERSON_AND_ORGANIZATION_ROLE ( 'classification_officer' ) ;
#147 = CC_DESIGN_PERSON_AND_ORGANIZATION_ASSIGNMENT ( #72, #146, ( #42 ) ) ;
#148 = CALENDAR_DATE ( 2024, 12, 12 ) ;
#149 = COORDINATED_UNIVERSAL_TIME_OFFSET ( 3, 0, .AHEAD. ) ;
#150 = DATE_AND_TIME ( #20, #138 ) ;
#151 = PERSON ( 'UNSPECIFIED', 'UNSPECIFIED', 'UNSPECIFIED', ('UNSPECIFIED'), ('UNSPECIFIED'), ('UNSPECIFIED') ) ;
#152 = EDGE_CURVE ( 'NONE', #35, #102, #137, .T. ) ;
#153 = APPLICATION_CONTEXT ( 'configuration controlled 3d designs of mechanical parts and assemblies' ) ;
#154 = CLOSED_SHELL ( 'NONE', ( #91, #226, #8, #21, #82, #247 ) ) ;
#155 = PLANE ( 'NONE',  #228 ) ;
#156 = CYLINDRICAL_SURFACE ( 'NONE', #32, 5.000000000000000000 ) ;
#157 = DIRECTION ( 'NONE',  ( 1.000000000000000000, 0.000000000000000000, -0.000000000000000000 ) ) ;
#158 = AXIS2_PLACEMENT_3D ( 'NONE', #96, #239, #49 ) ;
#159 = CARTESIAN_POINT ( 'NONE',  ( -5.000000000000000000, 0.000000000000000000, 20.00000000000000000 ) ) ;
#160 = APPLICATION_PROTOCOL_DEFINITION ( 'international standard', 'config_control_design', 1994, #66 ) ;
#161 = VERTEX_POINT ( 'NONE', #231 ) ;
#162 = PERSON_AND_ORGANIZATION ( #151, #219 ) ;
#163 = CC_DESIGN_APPROVAL ( #181, ( #42 ) ) ;
#164 = PERSON_AND_ORGANIZATION_ROLE ( 'design_supplier' ) ;
#165 = CALENDAR_DATE ( 2024, 12, 12 ) ;
#166 = PERSON_AND_ORGANIZATION ( #151, #219 ) ;
#167 = VECTOR ( 'NONE', #233, 1000.000000000000000 ) ;
#168 = CC_DESIGN_PERSON_AND_ORGANIZATION_ASSIGNMENT ( #36, #164, ( #87 ) ) ;
#169 = DIRECTION ( 'NONE',  ( 1.000000000000000000, 0.000000000000000000, 0.000000000000000000 ) ) ;
#170 = CIRCLE ( 'NONE', #3, 2.549999999999999822 ) ;
#171 = FACE_BOUND ( 'NONE', #61, .T. ) ;
#172 = VERTEX_POINT ( 'NONE', #48 ) ;
#173 = CARTESIAN_POINT ( 'NONE',  ( 5.000000000000000000, 6.123233995736766282E-16, 20.00000000000000000 ) ) ;
#174 = LINE ( 'NONE', #84, #167 ) ;
#175 = EDGE_LOOP ( 'NONE', ( #134, #11, #104, #217 ) ) ;
#176 = CARTESIAN_POINT ( 'NONE',  ( 2.549999999999999822, 3.122849337825750419E-16, 20.00000000000000000 ) ) ;
#177 = DIRECTION ( 'NONE',  ( 1.000000000000000000, 0.000000000000000000, 0.000000000000000000 ) ) ;
#178 = PERSON_AND_ORGANIZATION ( #151, #219 ) ;
#179 = AXIS2_PLACEMENT_3D ( 'NONE', #133, #214, #13 ) ;
#180 = SECURITY_CLASSIFICATION_LEVEL ( 'unclassified' ) ;
#181 = APPROVAL ( #202, 'UNSPECIFIED' ) ;
#182 = AXIS2_PLACEMENT_3D ( 'NONE', #187, #135, #130 ) ;
#183 = MANIFOLD_SOLID_BREP ( 'Áîáûøêà-Âûòÿíóòü1', #154 ) ;
#184 = CIRCLE ( 'NONE', #62, 5.000000000000000000 ) ;
#185 = PLANE ( 'NONE',  #144 ) ;
#186 = DIRECTION ( 'NONE',  ( -0.000000000000000000, -0.000000000000000000, -1.000000000000000000 ) ) ;
#187 = CARTESIAN_POINT ( 'NONE',  ( 0.000000000000000000, 0.000000000000000000, 20.00000000000000000 ) ) ;
#188 = CC_DESIGN_SECURITY_CLASSIFICATION ( #42, ( #87 ) ) ;
#189 = CARTESIAN_POINT ( 'NONE',  ( 0.000000000000000000, 0.000000000000000000, 20.00000000000000000 ) ) ;
#190 = DIRECTION ( 'NONE',  ( -0.000000000000000000, -0.000000000000000000, -1.000000000000000000 ) ) ;
#191 = ORIENTED_EDGE ( 'NONE', *, *, #18, .F. ) ;
#192 = DIRECTION ( 'NONE',  ( 0.000000000000000000, 0.000000000000000000, 1.000000000000000000 ) ) ;
#193 = VERTEX_POINT ( 'NONE', #176 ) ;
#194 = ORIENTED_EDGE ( 'NONE', *, *, #229, .T. ) ;
#195 = EDGE_CURVE ( 'NONE', #218, #79, #174, .T. ) ;
#196 = DIRECTION ( 'NONE',  ( -0.000000000000000000, -0.000000000000000000, -1.000000000000000000 ) ) ;
#197 = ORIENTED_EDGE ( 'NONE', *, *, #18, .T. ) ;
#198 = CARTESIAN_POINT ( 'NONE',  ( 0.000000000000000000, 0.000000000000000000, 0.000000000000000000 ) ) ;
#199 = ORIENTED_EDGE ( 'NONE', *, *, #73, .F. ) ;
#200 = APPROVAL_DATE_TIME ( #108, #208 ) ;
#201 = ORIENTED_EDGE ( 'NONE', *, *, #73, .T. ) ;
#202 = APPROVAL_STATUS ( 'not_yet_approved' ) ;
#203 = PERSON_AND_ORGANIZATION_ROLE ( 'design_owner' ) ;
#204 = CC_DESIGN_PERSON_AND_ORGANIZATION_ASSIGNMENT ( #166, #14, ( #206 ) ) ;
#205 = AXIS2_PLACEMENT_3D ( 'NONE', #54, #71, #221 ) ;
#206 = PRODUCT_DEFINITION ( 'UNKNOWN', '', #87, #27 ) ;
#207 = AXIS2_PLACEMENT_3D ( 'NONE', #9, #80, #169 ) ;
#208 = APPROVAL ( #225, 'UNSPECIFIED' ) ;
#209 = DIRECTION ( 'NONE',  ( 1.000000000000000000, 0.000000000000000000, 0.000000000000000000 ) ) ;
#210 = PRODUCT_DEFINITION_SHAPE ( 'NONE', 'NONE',  #206 ) ;
#211 = ORIENTED_EDGE ( 'NONE', *, *, #43, .F. ) ;
#212 = AXIS2_PLACEMENT_3D ( 'NONE', #216, #196, #106 ) ;
#213 =( GEOMETRIC_REPRESENTATION_CONTEXT ( 3 ) GLOBAL_UNCERTAINTY_ASSIGNED_CONTEXT ( ( #99 ) ) GLOBAL_UNIT_ASSIGNED_CONTEXT ( ( #129, #244, #39 ) ) REPRESENTATION_CONTEXT ( 'NONE', 'WORKASPACE' ) );
#214 = DIRECTION ( 'NONE',  ( 0.000000000000000000, 0.000000000000000000, 1.000000000000000000 ) ) ;
#215 = EDGE_CURVE ( 'NONE', #34, #218, #184, .T. ) ;
#216 = CARTESIAN_POINT ( 'NONE',  ( 0.000000000000000000, 0.000000000000000000, 20.00000000000000000 ) ) ;
#217 = ORIENTED_EDGE ( 'NONE', *, *, #89, .T. ) ;
#218 = VERTEX_POINT ( 'NONE', #159 ) ;
#219 = ORGANIZATION ( 'UNSPECIFIED', 'UNSPECIFIED', '' ) ;
#220 = CALENDAR_DATE ( 2024, 12, 12 ) ;
#221 = DIRECTION ( 'NONE',  ( 1.000000000000000000, 0.000000000000000000, 0.000000000000000000 ) ) ;
#222 = DATE_AND_TIME ( #148, #243 ) ;
#223 = DATE_TIME_ROLE ( 'classification_date' ) ;
#224 = CC_DESIGN_DATE_AND_TIME_ASSIGNMENT ( #248, #112, ( #206 ) ) ;
#225 = APPROVAL_STATUS ( 'not_yet_approved' ) ;
#226 = ADVANCED_FACE ( 'NONE', ( #59 ), #122, .T. ) ;
#227 = LOCAL_TIME ( 16, 53, 3.000000000000000000, #126 ) ;
#228 = AXIS2_PLACEMENT_3D ( 'NONE', #58, #114, #157 ) ;
#229 = EDGE_CURVE ( 'NONE', #218, #34, #92, .T. ) ;
#230 = CARTESIAN_POINT ( 'NONE',  ( 2.549999999999999822, 3.122849337825750419E-16, 20.00000000000000000 ) ) ;
#231 = CARTESIAN_POINT ( 'NONE',  ( 5.000000000000000000, 6.123233995736766282E-16, 0.000000000000000000 ) ) ;
#232 = DIRECTION ( 'NONE',  ( 1.000000000000000000, 0.000000000000000000, -0.000000000000000000 ) ) ;
#233 = DIRECTION ( 'NONE',  ( -0.000000000000000000, -0.000000000000000000, -1.000000000000000000 ) ) ;
#234 = ORIENTED_EDGE ( 'NONE', *, *, #195, .F. ) ;
#235 = CARTESIAN_POINT ( 'NONE',  ( 2.549999999999999822, 3.122849337825750419E-16, 0.000000000000000000 ) ) ;
#236 = CC_DESIGN_PERSON_AND_ORGANIZATION_ASSIGNMENT ( #162, #19, ( #87 ) ) ;
#237 = ORIENTED_EDGE ( 'NONE', *, *, #152, .T. ) ;
#238 = DIRECTION ( 'NONE',  ( -1.000000000000000000, 0.000000000000000000, 0.000000000000000000 ) ) ;
#239 = DIRECTION ( 'NONE',  ( 0.000000000000000000, 0.000000000000000000, 1.000000000000000000 ) ) ;
#240 = EDGE_LOOP ( 'NONE', ( #201, #132, #53, #142 ) ) ;
#241 = APPLICATION_PROTOCOL_DEFINITION ( 'international standard', 'config_control_design', 1994, #153 ) ;
#242 = CIRCLE ( 'NONE', #179, 5.000000000000000000 ) ;
#243 = LOCAL_TIME ( 16, 53, 3.000000000000000000, #107 ) ;
#244 =( NAMED_UNIT ( * ) PLANE_ANGLE_UNIT ( ) SI_UNIT ( $, .RADIAN. ) );
#245 = DATE_AND_TIME ( #220, #110 ) ;
#246 = CALENDAR_DATE ( 2024, 12, 12 ) ;
#247 = ADVANCED_FACE ( 'NONE', ( #120 ), #116, .F. ) ;
#248 = DATE_AND_TIME ( #165, #227 ) ;
#249 = APPROVAL_PERSON_ORGANIZATION ( #70, #208, #88 ) ;
ENDSEC;
END-ISO-10303-21;
